ISO-10303-21;
HEADER;
/* Generated by software containing ST-Developer
 * from STEP Tools, Inc. (www.steptools.com) 
 */
/* OPTION: using custom schema-name function */

FILE_DESCRIPTION(
/* description */ ('Generated from Alias Stage'),
/* implementation_level */ '2;1');

FILE_NAME(
/* name */ 'hinge1',
/* time_stamp */ '2014-09-29T17:52:56-05:00',
/* author */ (''),
/* organization */ ('Alias Systems'),
/* preprocessor_version */ 'ST-DEVELOPER v11',
/* originating_system */ 'Autodesk OpenModel 2012',
/* authorisation */ '');

FILE_SCHEMA (('AUTOMOTIVE_DESIGN { 1 2 10303 214 1 1 1 1 }'));
ENDSEC;

DATA;
#10=STYLED_ITEM('DefaultShader',(#11),#99);
#11=PRESENTATION_STYLE_ASSIGNMENT((#12));
#12=SURFACE_STYLE_USAGE(.BOTH.,#13);
#13=SURFACE_SIDE_STYLE('Surface Styles',(#14));
#14=SURFACE_STYLE_FILL_AREA(#15);
#15=FILL_AREA_STYLE('DefaultShader',(#16));
#16=FILL_AREA_STYLE_COLOUR('Shader Colour',#17);
#17=COLOUR_RGB('RGB Colour',0.226362654742073,0.229514297784543,0.25);
#18=ORIENTED_EDGE('trim curve',*,*,#50,.F.);
#19=ORIENTED_EDGE('trim curve',*,*,#51,.F.);
#20=ORIENTED_EDGE('trim curve',*,*,#52,.F.);
#21=ORIENTED_EDGE('trim curve',*,*,#53,.F.);
#22=ORIENTED_EDGE('trim curve',*,*,#54,.T.);
#23=ORIENTED_EDGE('trim curve',*,*,#55,.T.);
#24=ORIENTED_EDGE('trim curve',*,*,#56,.T.);
#25=ORIENTED_EDGE('trim curve',*,*,#57,.T.);
#26=ORIENTED_EDGE('trim curve',*,*,#55,.F.);
#27=ORIENTED_EDGE('trim curve',*,*,#58,.F.);
#28=ORIENTED_EDGE('trim curve',*,*,#52,.T.);
#29=ORIENTED_EDGE('trim curve',*,*,#59,.F.);
#30=ORIENTED_EDGE('trim curve',*,*,#60,.F.);
#31=ORIENTED_EDGE('trim curve',*,*,#56,.F.);
#32=ORIENTED_EDGE('trim curve',*,*,#59,.T.);
#33=ORIENTED_EDGE('trim curve',*,*,#51,.T.);
#34=ORIENTED_EDGE('trim curve',*,*,#53,.T.);
#35=ORIENTED_EDGE('trim curve',*,*,#58,.T.);
#36=ORIENTED_EDGE('trim curve',*,*,#54,.F.);
#37=ORIENTED_EDGE('trim curve',*,*,#61,.T.);
#38=ORIENTED_EDGE('trim curve',*,*,#61,.F.);
#39=ORIENTED_EDGE('trim curve',*,*,#57,.F.);
#40=ORIENTED_EDGE('trim curve',*,*,#60,.T.);
#41=ORIENTED_EDGE('trim curve',*,*,#50,.T.);
#42=VERTEX_POINT('Trimming Point',#109);
#43=VERTEX_POINT('Trimming Point',#115);
#44=VERTEX_POINT('Trimming Point',#116);
#45=VERTEX_POINT('Trimming Point',#118);
#46=VERTEX_POINT('Trimming Point',#126);
#47=VERTEX_POINT('Trimming Point',#127);
#48=VERTEX_POINT('Trimming Point',#129);
#49=VERTEX_POINT('Trimming Point',#131);
#50=EDGE_CURVE('Edge Curve',#42,#43,#62,.T.);
#51=EDGE_CURVE('Edge Curve',#44,#42,#63,.T.);
#52=EDGE_CURVE('Edge Curve',#45,#44,#64,.T.);
#53=EDGE_CURVE('Edge Curve',#43,#45,#65,.T.);
#54=EDGE_CURVE('Edge Curve',#46,#47,#66,.T.);
#55=EDGE_CURVE('Edge Curve',#47,#48,#67,.T.);
#56=EDGE_CURVE('Edge Curve',#48,#49,#68,.T.);
#57=EDGE_CURVE('Edge Curve',#49,#46,#69,.T.);
#58=EDGE_CURVE('Edge Curve',#45,#47,#70,.T.);
#59=EDGE_CURVE('Edge Curve',#48,#44,#71,.T.);
#60=EDGE_CURVE('Edge Curve',#49,#42,#72,.T.);
#61=EDGE_CURVE('Edge Curve',#46,#43,#73,.T.);
#62=(
BOUNDED_CURVE()
B_SPLINE_CURVE(3,(#109,#110,#111,#112,#113,#114,#115),.UNSPECIFIED.,.U.,
 .U.)
B_SPLINE_CURVE_WITH_KNOTS((4,3,4),(0.,3.71008591481884,7.42018453797662),
 .UNSPECIFIED.)
CURVE()
GEOMETRIC_REPRESENTATION_ITEM()
RATIONAL_B_SPLINE_CURVE((1.,0.997183079138083,0.997183079138083,1.,0.997182955037886,
0.997182955037886,1.))
REPRESENTATION_ITEM('node')
);
#63=(
BOUNDED_CURVE()
B_SPLINE_CURVE(1,(#116,#117),.UNSPECIFIED.,.U.,.U.)
B_SPLINE_CURVE_WITH_KNOTS((2,2),(0.,0.650862492329177),.UNSPECIFIED.)
CURVE()
GEOMETRIC_REPRESENTATION_ITEM()
RATIONAL_B_SPLINE_CURVE((1.,1.))
REPRESENTATION_ITEM('node')
);
#64=(
BOUNDED_CURVE()
B_SPLINE_CURVE(1,(#118,#119),.UNSPECIFIED.,.U.,.U.)
B_SPLINE_CURVE_WITH_KNOTS((2,2),(0.,1.),.UNSPECIFIED.)
CURVE()
GEOMETRIC_REPRESENTATION_ITEM()
RATIONAL_B_SPLINE_CURVE((1.,1.))
REPRESENTATION_ITEM('node')
);
#65=(
BOUNDED_CURVE()
B_SPLINE_CURVE(1,(#120,#121),.UNSPECIFIED.,.U.,.U.)
B_SPLINE_CURVE_WITH_KNOTS((2,2),(0.,0.65086330262003),.UNSPECIFIED.)
CURVE()
GEOMETRIC_REPRESENTATION_ITEM()
RATIONAL_B_SPLINE_CURVE((1.,1.))
REPRESENTATION_ITEM('node')
);
#66=(
BOUNDED_CURVE()
B_SPLINE_CURVE(1,(#126,#127),.UNSPECIFIED.,.U.,.U.)
B_SPLINE_CURVE_WITH_KNOTS((2,2),(0.348815111092177,1.),.UNSPECIFIED.)
CURVE()
GEOMETRIC_REPRESENTATION_ITEM()
RATIONAL_B_SPLINE_CURVE((1.,1.))
REPRESENTATION_ITEM('node')
);
#67=(
BOUNDED_CURVE()
B_SPLINE_CURVE(1,(#128,#129),.UNSPECIFIED.,.U.,.U.)
B_SPLINE_CURVE_WITH_KNOTS((2,2),(0.,1.),.UNSPECIFIED.)
CURVE()
GEOMETRIC_REPRESENTATION_ITEM()
RATIONAL_B_SPLINE_CURVE((1.,1.))
REPRESENTATION_ITEM('node')
);
#68=(
BOUNDED_CURVE()
B_SPLINE_CURVE(1,(#130,#131),.UNSPECIFIED.,.U.,.U.)
B_SPLINE_CURVE_WITH_KNOTS((2,2),(0.,0.651184081893992),.UNSPECIFIED.)
CURVE()
GEOMETRIC_REPRESENTATION_ITEM()
RATIONAL_B_SPLINE_CURVE((1.,1.))
REPRESENTATION_ITEM('node')
);
#69=(
BOUNDED_CURVE()
B_SPLINE_CURVE(3,(#132,#133,#134,#135,#136,#137,#138),.UNSPECIFIED.,.U.,
 .U.)
B_SPLINE_CURVE_WITH_KNOTS((4,3,4),(-7.41998177562978,-3.70999723372903,0.),
 .UNSPECIFIED.)
CURVE()
GEOMETRIC_REPRESENTATION_ITEM()
RATIONAL_B_SPLINE_CURVE((1.,0.997198942466794,0.997198942466794,1.,0.997198843427081,
0.997198843427081,1.))
REPRESENTATION_ITEM('node')
);
#70=(
BOUNDED_CURVE()
B_SPLINE_CURVE(2,(#153,#154,#155,#156,#157,#158,#159),.UNSPECIFIED.,.U.,
 .U.)
B_SPLINE_CURVE_WITH_KNOTS((3,2,2,3),(0.,60.0002157265272,120.000431453046,
180.00064717957),.UNSPECIFIED.)
CURVE()
GEOMETRIC_REPRESENTATION_ITEM()
RATIONAL_B_SPLINE_CURVE((1.,0.866024462498391,1.,0.866024462498382,1.,0.866024462498383,
1.))
REPRESENTATION_ITEM('node')
);
#71=(
BOUNDED_CURVE()
B_SPLINE_CURVE(2,(#160,#161,#162,#163,#164,#165,#166),.UNSPECIFIED.,.U.,
 .U.)
B_SPLINE_CURVE_WITH_KNOTS((3,2,2,3),(0.,60.0002157265239,120.000431453043,
180.00064717957),.UNSPECIFIED.)
CURVE()
GEOMETRIC_REPRESENTATION_ITEM()
RATIONAL_B_SPLINE_CURVE((1.,0.866024462498383,1.,0.866024462498382,1.,0.866024462498391,
1.))
REPRESENTATION_ITEM('node')
);
#72=(
BOUNDED_CURVE()
B_SPLINE_CURVE(3,(#171,#172,#173,#174,#175,#176,#177),.UNSPECIFIED.,.U.,
 .U.)
B_SPLINE_CURVE_WITH_KNOTS((4,3,4),(0.,1.49463378506589,3.05006644750088),
 .UNSPECIFIED.)
CURVE()
GEOMETRIC_REPRESENTATION_ITEM()
RATIONAL_B_SPLINE_CURVE((1.,0.99999106114943,0.99999106114943,1.,0.999984007972796,
0.999984007972797,1.))
REPRESENTATION_ITEM('node')
);
#73=(
BOUNDED_CURVE()
B_SPLINE_CURVE(3,(#182,#183,#184,#185,#186,#187,#188),.UNSPECIFIED.,.U.,
 .U.)
B_SPLINE_CURVE_WITH_KNOTS((4,3,4),(-3.13211888343468,-1.63748525067074,-0.0820524359496096),
 .UNSPECIFIED.)
CURVE()
GEOMETRIC_REPRESENTATION_ITEM()
RATIONAL_B_SPLINE_CURVE((1.,0.999991061156182,0.999991061156182,1.,0.999984007979846,
0.999984007979846,1.))
REPRESENTATION_ITEM('node')
);
#74=EDGE_LOOP('trim boundary',(#18,#19,#20,#21));
#75=EDGE_LOOP('trim boundary',(#22,#23,#24,#25));
#76=EDGE_LOOP('trim boundary',(#26,#27,#28,#29));
#77=EDGE_LOOP('trim boundary',(#30,#31,#32,#33));
#78=EDGE_LOOP('trim boundary',(#34,#35,#36,#37));
#79=EDGE_LOOP('trim boundary',(#38,#39,#40,#41));
#80=FACE_OUTER_BOUND('Boundary Edges',#74,.T.);
#81=FACE_OUTER_BOUND('Boundary Edges',#75,.T.);
#82=FACE_OUTER_BOUND('Boundary Edges',#76,.T.);
#83=FACE_OUTER_BOUND('Boundary Edges',#77,.T.);
#84=FACE_OUTER_BOUND('Boundary Edges',#78,.T.);
#85=FACE_OUTER_BOUND('Boundary Edges',#79,.T.);
#86=(
BOUNDED_SURFACE()
B_SPLINE_SURFACE(1,1,((#105,#106),(#107,#108)),.UNSPECIFIED.,.U.,.U.,.U.)
B_SPLINE_SURFACE_WITH_KNOTS((2,2),(2,2),(0.,1.),(0.,1.),.UNSPECIFIED.)
GEOMETRIC_REPRESENTATION_ITEM()
RATIONAL_B_SPLINE_SURFACE(((1.,1.),(1.,1.)))
REPRESENTATION_ITEM('trim region')
SURFACE()
);
#87=(
BOUNDED_SURFACE()
B_SPLINE_SURFACE(1,1,((#122,#123),(#124,#125)),.UNSPECIFIED.,.U.,.U.,.U.)
B_SPLINE_SURFACE_WITH_KNOTS((2,2),(2,2),(0.,1.),(0.,1.),.UNSPECIFIED.)
GEOMETRIC_REPRESENTATION_ITEM()
RATIONAL_B_SPLINE_SURFACE(((1.,1.),(1.,1.)))
REPRESENTATION_ITEM('trim region')
SURFACE()
);
#88=(
BOUNDED_SURFACE()
B_SPLINE_SURFACE(1,2,((#139,#140,#141,#142,#143,#144,#145),(#146,#147,#148,
#149,#150,#151,#152)),.UNSPECIFIED.,.U.,.U.,.U.)
B_SPLINE_SURFACE_WITH_KNOTS((2,2),(3,2,2,3),(0.,1.),(0.,60.0002157265239,
120.000431453043,180.00064717957),.UNSPECIFIED.)
GEOMETRIC_REPRESENTATION_ITEM()
RATIONAL_B_SPLINE_SURFACE(((1.,0.866024462498383,1.,0.866024462498382,1.,
0.866024462498391,1.),(1.,0.866024462498383,1.,0.866024462498382,1.,0.866024462498391,
1.)))
REPRESENTATION_ITEM('trim region')
SURFACE()
);
#89=(
BOUNDED_SURFACE()
B_SPLINE_SURFACE(1,1,((#167,#168),(#169,#170)),.UNSPECIFIED.,.U.,.U.,.U.)
B_SPLINE_SURFACE_WITH_KNOTS((2,2),(2,2),(0.3769644149442,0.61921579438688),
(0.317080284500675,0.665678405072121),.UNSPECIFIED.)
GEOMETRIC_REPRESENTATION_ITEM()
RATIONAL_B_SPLINE_SURFACE(((1.,1.),(1.,1.)))
REPRESENTATION_ITEM('trim region')
SURFACE()
);
#90=(
BOUNDED_SURFACE()
B_SPLINE_SURFACE(1,1,((#178,#179),(#180,#181)),.UNSPECIFIED.,.U.,.U.,.U.)
B_SPLINE_SURFACE_WITH_KNOTS((2,2),(2,2),(0.317080284500675,0.665678405072121),
(0.3769644149442,0.61921579438688),.UNSPECIFIED.)
GEOMETRIC_REPRESENTATION_ITEM()
RATIONAL_B_SPLINE_SURFACE(((1.,1.),(1.,1.)))
REPRESENTATION_ITEM('trim region')
SURFACE()
);
#91=(
BOUNDED_SURFACE()
B_SPLINE_SURFACE(3,6,((#189,#190,#191,#192,#193,#194,#195),(#196,#197,#198,
#199,#200,#201,#202),(#203,#204,#205,#206,#207,#208,#209),(#210,#211,#212,
#213,#214,#215,#216),(#217,#218,#219,#220,#221,#222,#223),(#224,#225,#226,
#227,#228,#229,#230),(#231,#232,#233,#234,#235,#236,#237)),.UNSPECIFIED.,
 .U.,.U.,.U.)
B_SPLINE_SURFACE_WITH_KNOTS((4,1,1,1,4),(7,7),(0.,0.25,0.5,0.75,1.),(0.,
1.),.UNSPECIFIED.)
GEOMETRIC_REPRESENTATION_ITEM()
RATIONAL_B_SPLINE_SURFACE(((1.,1.,1.,1.,1.,1.,1.),(1.,1.,1.,1.,1.,1.,1.),
(1.,1.,1.,1.,1.,1.,1.),(1.,1.,1.,1.,1.,1.,1.),(1.,1.,1.,1.,1.,1.,1.),(1.,
1.,1.,1.,1.,1.,1.),(1.,1.,1.,1.,1.,1.,1.)))
REPRESENTATION_ITEM('trim region')
SURFACE()
);
#92=ADVANCED_FACE('trim region',(#80),#86,.T.);
#93=ADVANCED_FACE('trim region',(#81),#87,.T.);
#94=ADVANCED_FACE('trim region',(#82),#88,.T.);
#95=ADVANCED_FACE('trim region',(#83),#89,.T.);
#96=ADVANCED_FACE('trim region',(#84),#90,.T.);
#97=ADVANCED_FACE('trim region',(#85),#91,.T.);
#98=CLOSED_SHELL('shell',(#92,#93,#94,#95,#96,#97));
#99=MANIFOLD_SOLID_BREP('Alias Brep Model',#98);
#100=MECHANICAL_DESIGN_GEOMETRIC_PRESENTATION_REPRESENTATION(
'STEP Presentation Information',(#10),#250);
#101=AXIS2_PLACEMENT_3D('Reference Location',#104,#103,#102);
#102=DIRECTION('X axis Default values',(1.,0.,0.));
#103=DIRECTION('Z axis Default values',(0.,0.,1.));
#104=CARTESIAN_POINT('Origin',(0.,0.,0.));
#105=CARTESIAN_POINT('CVs',(-36.7999929475437,2.55717043347886,-15.2240389998588));
#106=CARTESIAN_POINT('CVs',(-36.7999929475437,32.9178239116601,-17.1046757086106));
#107=CARTESIAN_POINT('CVs',(36.799999981547,2.55717043347886,-15.2240389998588));
#108=CARTESIAN_POINT('CVs',(36.799999981547,32.9178239116601,-17.1046757086106));
#109=CARTESIAN_POINT('CVs',(-36.7999929475437,22.3177810250304,-16.4480748952827));
#110=CARTESIAN_POINT('CVs',(-24.6720971366166,19.8938911040285,-16.2979313429812));
#111=CARTESIAN_POINT('CVs',(-12.370800165026,18.6768034399688,-16.2225410112005));
#112=CARTESIAN_POINT('CVs',(-5.73729758035491E-005,18.6768033517462,-16.2225410057357));
#113=CARTESIAN_POINT('CVs',(12.3707245104136,18.6768032635233,-16.2225410002708));
#114=CARTESIAN_POINT('CVs',(24.6720637209047,19.8938993025365,-16.2979318508232));
#115=CARTESIAN_POINT('CVs',(36.799999981547,22.3178056259902,-16.4480764191454));
#116=CARTESIAN_POINT('CVs',(-36.7999929475437,2.55717043347886,-15.2240389998588));
#117=CARTESIAN_POINT('CVs',(-36.7999929475437,22.3177810250304,-16.4480748952827));
#118=CARTESIAN_POINT('CVs',(36.799999981547,2.55717043347886,-15.2240389998588));
#119=CARTESIAN_POINT('CVs',(-36.7999929475437,2.55717043347886,-15.2240389998588));
#120=CARTESIAN_POINT('CVs',(36.799999981547,22.3178056259902,-16.4480764191454));
#121=CARTESIAN_POINT('CVs',(36.799999981547,2.55717043347886,-15.2240389998588));
#122=CARTESIAN_POINT('CVs',(-36.7999929475437,4.44282458589953,15.2176151670506));
#123=CARTESIAN_POINT('CVs',(36.799999981547,4.44282458589953,15.2176151670506));
#124=CARTESIAN_POINT('CVs',(-36.7999929475437,34.8034600050869,13.3369795769431));
#125=CARTESIAN_POINT('CVs',(36.799999981547,34.8034600050869,13.3369795769431));
#126=CARTESIAN_POINT('CVs',(36.799999981547,24.213211588514,13.9929736892303));
#127=CARTESIAN_POINT('CVs',(36.799999981547,4.44282458589953,15.2176151670506));
#128=CARTESIAN_POINT('CVs',(36.799999981547,4.44282458589953,15.2176151670506));
#129=CARTESIAN_POINT('CVs',(-36.7999929475437,4.44282458589953,15.2176151670506));
#130=CARTESIAN_POINT('CVs',(-36.7999929475437,4.44282458589953,15.2176151670506));
#131=CARTESIAN_POINT('CVs',(-36.7999929475437,24.2131870870613,13.9929752069293));
#132=CARTESIAN_POINT('CVs',(-36.7999929475437,24.2131870870613,13.9929752069293));
#133=CARTESIAN_POINT('CVs',(-24.6712871892247,21.7933490446285,14.1428677728147));
#134=CARTESIAN_POINT('CVs',(-12.3701858556364,20.5783249534181,14.2181302802432));
#135=CARTESIAN_POINT('CVs',(-5.72244501495511E-005,20.5783248705812,14.2181302853743));
#136=CARTESIAN_POINT('CVs',(12.3701094820193,20.5783247877441,14.2181302905055));
#137=CARTESIAN_POINT('CVs',(24.671252645378,21.7933571897207,14.1428672682815));
#138=CARTESIAN_POINT('CVs',(36.799999981547,24.213211588514,13.9929736892304));
#139=CARTESIAN_POINT('CVs',(-36.7999929475437,4.4428245859001,15.2176151670506));
#140=CARTESIAN_POINT('CVs',(-36.7999929475436,-4.34495915944558,15.7620086307317));
#141=CARTESIAN_POINT('CVs',(-36.7999929475437,-9.21028197177179,8.42374307747264));
#142=CARTESIAN_POINT('CVs',(-36.7999929475437,-14.075604784098,1.08547752421553));
#143=CARTESIAN_POINT('CVs',(-36.7999929475437,-10.1531121222763,-6.79713363682822));
#144=CARTESIAN_POINT('CVs',(-36.7999929475437,-6.23061946045432,-14.6797447978748));
#145=CARTESIAN_POINT('CVs',(-36.7999929475437,2.55717043348113,-15.224038999861));
#146=CARTESIAN_POINT('CVs',(36.799999981547,4.4428245859001,15.2176151670506));
#147=CARTESIAN_POINT('CVs',(36.799999981547,-4.34495915944558,15.7620086307317));
#148=CARTESIAN_POINT('CVs',(36.799999981547,-9.21028197177179,8.42374307747264));
#149=CARTESIAN_POINT('CVs',(36.799999981547,-14.075604784098,1.08547752421553));
#150=CARTESIAN_POINT('CVs',(36.799999981547,-10.1531121222763,-6.79713363682822));
#151=CARTESIAN_POINT('CVs',(36.799999981547,-6.23061946045432,-14.6797447978748));
#152=CARTESIAN_POINT('CVs',(36.799999981547,2.55717043348113,-15.224038999861));
#153=CARTESIAN_POINT('CVs',(36.799999981547,2.55717043348113,-15.224038999861));
#154=CARTESIAN_POINT('CVs',(36.799999981547,-6.23061946045432,-14.6797447978748));
#155=CARTESIAN_POINT('CVs',(36.799999981547,-10.1531121222763,-6.79713363682822));
#156=CARTESIAN_POINT('CVs',(36.799999981547,-14.075604784098,1.08547752421553));
#157=CARTESIAN_POINT('CVs',(36.799999981547,-9.21028197177179,8.42374307747264));
#158=CARTESIAN_POINT('CVs',(36.799999981547,-4.34495915944558,15.7620086307317));
#159=CARTESIAN_POINT('CVs',(36.799999981547,4.4428245859001,15.2176151670506));
#160=CARTESIAN_POINT('CVs',(-36.7999929475437,4.4428245859001,15.2176151670506));
#161=CARTESIAN_POINT('CVs',(-36.7999929475436,-4.34495915944558,15.7620086307317));
#162=CARTESIAN_POINT('CVs',(-36.7999929475437,-9.21028197177179,8.42374307747264));
#163=CARTESIAN_POINT('CVs',(-36.7999929475437,-14.075604784098,1.08547752421553));
#164=CARTESIAN_POINT('CVs',(-36.7999929475437,-10.1531121222763,-6.79713363682822));
#165=CARTESIAN_POINT('CVs',(-36.7999929475437,-6.23061946045432,-14.6797447978748));
#166=CARTESIAN_POINT('CVs',(-36.7999929475437,2.55717043348113,-15.224038999861));
#167=CARTESIAN_POINT('CVs',(-36.7999929475436,35.036227747379,-17.2664330541969));
#168=CARTESIAN_POINT('CVs',(-36.7999929475437,-11.9828561956217,-17.2664330541969));
#169=CARTESIAN_POINT('CVs',(-36.7999929475436,35.036227747379,15.4085507542387));
#170=CARTESIAN_POINT('CVs',(-36.7999929475437,-11.9828561956217,15.4085507542387));
#171=CARTESIAN_POINT('CVs',(-36.7999929475437,24.2131870871248,13.9929752069254));
#172=CARTESIAN_POINT('CVs',(-36.7999929475437,23.9539166035595,9.01737604763435));
#173=CARTESIAN_POINT('CVs',(-36.7999929475437,23.6699841297877,4.04337043839332));
#174=CARTESIAN_POINT('CVs',(-36.7999929475436,23.3613972798994,-0.928908235114169));
#175=CARTESIAN_POINT('CVs',(-36.7999929475436,23.0402079082967,-6.10425210720429));
#176=CARTESIAN_POINT('CVs',(-36.7999929475436,22.6923302600752,-11.2773903895641));
#177=CARTESIAN_POINT('CVs',(-36.7999929475436,22.3177810250413,-16.4480748952841));
#178=CARTESIAN_POINT('CVs',(36.799999981547,35.036227747379,-17.2664330541969));
#179=CARTESIAN_POINT('CVs',(36.799999981547,35.036227747379,15.4085507542387));
#180=CARTESIAN_POINT('CVs',(36.799999981547,-11.9828561956217,-17.2664330541969));
#181=CARTESIAN_POINT('CVs',(36.799999981547,-11.9828561956217,15.4085507542387));
#182=CARTESIAN_POINT('CVs',(36.799999981547,24.2132115885775,13.9929736892264));
#183=CARTESIAN_POINT('CVs',(36.799999981547,23.95394113939,9.01737499005116));
#184=CARTESIAN_POINT('CVs',(36.799999981547,23.6700087107992,4.04336988674046));
#185=CARTESIAN_POINT('CVs',(36.799999981547,23.361421916889,-0.928908235129726));
#186=CARTESIAN_POINT('CVs',(36.799999981547,23.0402325332731,-6.10425266543722));
#187=CARTESIAN_POINT('CVs',(36.799999981547,22.6923548730444,-11.2773914557076));
#188=CARTESIAN_POINT('CVs',(36.799999981547,22.3178056260011,-16.4480764191468));
#189=CARTESIAN_POINT('CVs',(-60.7252546148997,32.6680282186655,91.583473549328));
#190=CARTESIAN_POINT('CVs',(-41.5598400888326,26.1544294627678,91.5838742945337));
#191=CARTESIAN_POINT('CVs',(-21.1503128404759,21.969476520911,91.5840128504036));
#192=CARTESIAN_POINT('CVs',(-2.60691185971496E-006,20.5048128321551,91.584166116845));
#193=CARTESIAN_POINT('CVs',(21.1501114581982,21.9694762542147,91.5840128503957));
#194=CARTESIAN_POINT('CVs',(41.5597516143449,26.1544298005837,91.5838742945506));
#195=CARTESIAN_POINT('CVs',(60.7251407965634,32.6680279867565,91.5834735493249));
#196=CARTESIAN_POINT('CVs',(-60.7258690104718,32.6686527929822,55.0051933761644));
#197=CARTESIAN_POINT('CVs',(-41.5680994732561,26.137941657502,55.0628055196314));
#198=CARTESIAN_POINT('CVs',(-21.1574910804035,21.9398689659394,55.0996673183236));
#199=CARTESIAN_POINT('CVs',(-9.43191313496072E-006,20.4701779896967,55.1128602559829));
#200=CARTESIAN_POINT('CVs',(21.1572931733777,21.939871449705,55.0996673183036));
#201=CARTESIAN_POINT('CVs',(41.5680211746834,26.1379385113918,55.0628055196484));
#202=CARTESIAN_POINT('CVs',(60.7257486831361,32.6686549527854,55.0051933761622));
#203=CARTESIAN_POINT('CVs',(-60.7269955122766,30.0057178622439,-18.3467410512306));
#204=CARTESIAN_POINT('CVs',(-41.5846583491904,23.4406391135131,-18.2025752570572));
#205=CARTESIAN_POINT('CVs',(-21.1718788823158,19.2164076985302,-18.1094918743028));
#206=CARTESIAN_POINT('CVs',(-8.77632490414726E-005,17.7362385762812,-18.0775287195375));
#207=CARTESIAN_POINT('CVs',(21.1718082149164,19.2164068418014,-18.1094918742854));
#208=CARTESIAN_POINT('CVs',(41.584520440265,23.4406401986995,-18.2025752570697));
#209=CARTESIAN_POINT('CVs',(60.7268869378799,30.0057171172664,-18.3467410512296));
#210=CARTESIAN_POINT('CVs',(-60.7280030571869,17.9590877966127,-128.082748211851));
#211=CARTESIAN_POINT('CVs',(-41.6090293155034,11.3361909375605,-127.894178623979));
#212=CARTESIAN_POINT('CVs',(-21.1934054701417,7.06858934582877,-127.773059967146));
#213=CARTESIAN_POINT('CVs',(-4.67105283696867E-005,5.57115939106866,-127.729827933455));
#214=CARTESIAN_POINT('CVs',(21.1932657569884,7.06858970515177,-127.773059967132));
#215=CARTESIAN_POINT('CVs',(41.6089262542593,11.3361904824151,-127.894178623991));
#216=CARTESIAN_POINT('CVs',(60.7278765640273,17.9590881090695,-128.082748211847));
#217=CARTESIAN_POINT('CVs',(-60.7278433745503,-2.07725430357754,-236.644504723093));
#218=CARTESIAN_POINT('CVs',(-41.6325822494371,-8.77028578860487,-236.498051680923));
#219=CARTESIAN_POINT('CVs',(-21.2144560743296,-13.0891895909245,-236.402899402259));
#220=CARTESIAN_POINT('CVs',(-0.000109329322270924,-14.6068435989588,-236.370535162183));
#221=CARTESIAN_POINT('CVs',(21.2144179075019,-13.0891898370741,-236.402899402209));
#222=CARTESIAN_POINT('CVs',(41.6324326147468,-8.77028547681493,-236.498051680968));
#223=CARTESIAN_POINT('CVs',(60.7277352559391,-2.07725451762132,-236.644504723085));
#224=CARTESIAN_POINT('CVs',(-60.7267234184198,-20.6321529702595,-307.660823491917));
#225=CARTESIAN_POINT('CVs',(-41.6473694681381,-27.3838879916449,-307.597975576082));
#226=CARTESIAN_POINT('CVs',(-21.2281287621864,-31.7448783381233,-307.558360672031));
#227=CARTESIAN_POINT('CVs',(1.4705074153909E-005,-33.2786122381316,-307.542727397528));
#228=CARTESIAN_POINT('CVs',(21.2278909598282,-31.7448782131305,-307.558360671952));
#229=CARTESIAN_POINT('CVs',(41.6473015839146,-27.3838881499586,-307.597975576111));
#230=CARTESIAN_POINT('CVs',(60.7266037490984,-20.6321528615796,-307.660823491907));
#231=CARTESIAN_POINT('CVs',(-60.7258327619261,-31.1573532649125,-342.69211132014));
#232=CARTESIAN_POINT('CVs',(-41.6545098281507,-37.9422883957423,-342.684759782303));
#233=CARTESIAN_POINT('CVs',(-21.2347138460909,-42.3267921507232,-342.680107105311));
#234=CARTESIAN_POINT('CVs',(-3.81160046458717E-005,-43.8695122987787,-342.678501491975));
#235=CARTESIAN_POINT('CVs',(21.2345644296824,-42.3267921674921,-342.680107105235));
#236=CARTESIAN_POINT('CVs',(41.6544075167894,-37.9422883744939,-342.68475978235));
#237=CARTESIAN_POINT('CVs',(60.7257175696909,-31.1573532795021,-342.692111320128));
#238=SHAPE_DEFINITION_REPRESENTATION(#240,#239);
#239=SHAPE_REPRESENTATION('Hybrid Model',(#101,#99),#249);
#240=PRODUCT_DEFINITION_SHAPE('','Shape for Alias Stage Part',#241);
#241=PRODUCT_DEFINITION('design','A Studio part',#242,#246);
#242=PRODUCT_DEFINITION_FORMATION_WITH_SPECIFIED_SOURCE('1',
'Latest Version',#244,.MADE.);
#243=PRODUCT_RELATED_PRODUCT_CATEGORY('part','An Alias Part',(#244));
#244=PRODUCT('hinge1','hinge1','The Alias Stage',(#245));
#245=PRODUCT_CONTEXT('Industrial Design',#248,'mechanical');
#246=PRODUCT_DEFINITION_CONTEXT('Industrial Design',#248,'design');
#247=APPLICATION_PROTOCOL_DEFINITION('Draft International Standard',
'automotive_design',1997,#248);
#248=APPLICATION_CONTEXT(
'Core Data for Automotive Mechanical Design Processes');
#249=(
GEOMETRIC_REPRESENTATION_CONTEXT(3)
GLOBAL_UNCERTAINTY_ASSIGNED_CONTEXT((#251))
GLOBAL_UNIT_ASSIGNED_CONTEXT((#254,#253,#252))
REPRESENTATION_CONTEXT('Alias Stage','Top Level Node')
);
#250=(
GEOMETRIC_REPRESENTATION_CONTEXT(3)
GLOBAL_UNCERTAINTY_ASSIGNED_CONTEXT((#251))
GLOBAL_UNIT_ASSIGNED_CONTEXT((#254,#253,#252))
REPRESENTATION_CONTEXT('Alias 3D Styling','Presentation')
);
#251=UNCERTAINTY_MEASURE_WITH_UNIT(LENGTH_MEASURE(0.00199999994947575),#254,
'distance_accuracy_value',
'Maximum model space distance between geometric entities that will make
 up a surface model or shell');
#252=(
NAMED_UNIT(*)
SI_UNIT($,.STERADIAN.)
SOLID_ANGLE_UNIT()
);
#253=(
NAMED_UNIT(*)
PLANE_ANGLE_UNIT()
SI_UNIT($,.RADIAN.)
);
#254=(
LENGTH_UNIT()
NAMED_UNIT(*)
SI_UNIT(.MILLI.,.METRE.)
);
ENDSEC;
END-ISO-10303-21;
